Summer Hit Gt 2

(/) Slide Up  (\) Slide Down  (h) Hammer On  (p) Pull Off  (b) Bend (r) Release (v) Vibrato

E|--7--------------------7-----7-----7----11-----|--9h12p9--9------------------
B|-----------------------------------------------|-------------12--12----------
G|-----------------------------------------------|---------------------11--11--
D|-----------------------6--6-----6-------9---9--|-----------------------------
A|--7--------------------------------------------|-----------------------------
E|-----0--0--0--0--0--0--------------------------|-----------------------------



E|--12--------------
B|--------14--------
G|--------------13--
D|------------------
A|------------------
E|------------------



E|--16------------12------------10------------9--------
B|------14------------14------------12-----------7-----
G|----------14------------13------------11----------8--
D|-----------------------------------------------------
A|-----------------------------------------------------
E|-----------------------------------------------------



E|--9--------9--------|--------0--------0--
B|-----7--------7-----|-----7--------7-----
G|--------8--------8--|--8--------8--------
D|--------------------|--------------------
A|--------------------|--------------------
E|--------------------|--------------------
http://www.guitartabcreator.com
Guitar Tab Creator is intended to store guitar tab created through the tool. It currently does not support in-line text editing. Any text you place in here will be lost. If you need to comment on your tab, please use the "Tab Notes" section located below.