Summer Hit Gt 1

(/) Slide Up  (\) Slide Down  (h) Hammer On  (p) Pull Off  (b) Bend (r) Release (v) Vibrato

E|----------------------------------------------------
B|----------------------------------------------------
G|----------------------------------------------------
D|--------------11-----9---------------------4--4--4--
A|--7-----------11-----9-----9--9h11p9--9----4--4--4--
E|--0--0--0--0------0-----0--9--9-------9----5--5--5--



E|--7-------------
B|-------10-------
G|-------------9--
D|----------------
A|----------------
E|----------------



E|--12------------11-----------9----------7--------7-----
B|------10------------9-----------7----------5--------5--
G|----------11-------------------------------------------
D|-----------------------11----------9----------7--------
A|-------------------------------------------------------
E|-------------------------------------------------------



E|-----7-----
B|--------5--
G|-----------
D|--7--------
A|-----------
E|-----------
http://www.guitartabcreator.com
Guitar Tab Creator is intended to store guitar tab created through the tool. It currently does not support in-line text editing. Any text you place in here will be lost. If you need to comment on your tab, please use the "Tab Notes" section located below.