Kings Hwy Guitar 2

(/) Slide Up  (\) Slide Down  (h) Hammer On  (p) Pull Off  (b) Bend (r) Release (v) Vibrato


E|------------------------------------------------------------------------
B|------------------------------------------------------------------------
G|------------------------------------------------------------------------
D|------------------------------------------------------------------------
A|--0h2--2--2--2--0--2--4h5p4--0----0--2--4h5p4--0----0--2/4--0-----------
D|---------------------------------------------------------------4--4--4--
Play this only first two bars, w/o bass and drums then switch to next riff:


E|----------------------------------------------------------------------
B|----------------------------------------------------------------------
G|----------------------------------------------------------------------
D|--2h4--4--4--4--2--4--4h7p4--2----2--4--4h7p4--2----2h4p2-------------
A|-----------------------------------------------------------2p0--0--0--
D|----------------------------------------------------------------------



E|----------------------------------------
B|--2--2--2--2--5--5--3--3--2-------------
G|-----------------------------2--4h6-----
D|-------------------------------------4--
A|----------------------------------------
D|----------------------------------------



E|--------
B|--10----
G|--9-----
D|--7-----
A|--7-----
D|--7-----
http://www.guitartabcreator.com
Guitar Tab Creator is intended to store guitar tab created through the tool. It currently does not support in-line text editing. Any text you place in here will be lost. If you need to comment on your tab, please use the "Tab Notes" section located below.