Kings Hwy Guitar 1

(/) Slide Up  (\) Slide Down  (h) Hammer On  (p) Pull Off  (b) Bend (r) Release (v) Vibrato

E|--------------------------------------------------------------------
B|--------------------------------------------------------------------
G|----------------------4h6p4-----------4h6p4-------------------------
D|-----------------------------7---------------7----6h7p6-------------
A|--4h5--5--5--5--4--5------------4--5---------------------7/9--9--9--
D|--------------------------------------------------------------------



E|--4--4--4--4--7--7--5--5--4--4--0--0--2--4--4----|--9--9--9--9----9--9--7--7--5--5--4--5--5--
B|-------------------------------------------------|-------------------------------------------
G|-------------------------------------------------|-------------------------------------------
D|-------------------------------------------------|-------------------------------------------
A|-------------------------------------------------|-------------------------------------------
D|-------------------------------------------------|-------------------------------------------
^This variation 3rd of 4 times only


E|-------------------
B|-------------------
G|----------6--6--6--
D|--0--0----6--6--6--
A|--0--0----4--4--4--
D|--0--0----0--0--0--
http://www.guitartabcreator.com
Guitar Tab Creator is intended to store guitar tab created through the tool. It currently does not support in-line text editing. Any text you place in here will be lost. If you need to comment on your tab, please use the "Tab Notes" section located below.