Conster Mock Guitar 2

(/) Slide Up  (\) Slide Down  (h) Hammer On  (p) Pull Off  (b) Bend (r) Release (v) Vibrato

Section A
E|----------------------------------0----------------10--------------
B|----------12----------12-------------12------12--------12------12--
G|------11----------11----------11---------11----------------11------
D|--10----------10----------12---------------------------------------
A|-------------------------------------------------------------------
E|-------------------------------------------------------------------


Section B
E|-----7--------7----------------14----------14--------------
B|--------5--------5-----------------15----------15------15--
G|--5--------5--------5------17----------17----------17------
D|-----------------------------------------------------------
A|-----------------------------------------------------------
E|-----------------------------------------------------------


Section C
E|-----------------------------------------------------------------------------------
B|-----------------------------------------------------------------------------------
G|-----------------------------------------------------------------------------------
D|--------------------------------------------7-----------------------5--------------
A|--------------------------5-----------------------------------------------------7--
E|--5--5--5--5--5--5--5--5-----5--5--5--5--5-----5--5--5--5--5--5--5-----5--5--5-----
http://www.guitartabcreator.com
Guitar Tab Creator is intended to store guitar tab created through the tool. It currently does not support in-line text editing. Any text you place in here will be lost. If you need to comment on your tab, please use the "Tab Notes" section located below.