Conster Mock

(/) Slide Up  (\) Slide Down  (h) Hammer On  (p) Pull Off  (b) Bend (r) Release (v) Vibrato

E|--------------------------------------
B|--------------------------------------
G|----------------9---9---9-------------
D|--7--7--7--7------------------12--11--
A|--------------------------------------
E|--8--8--8--8----10--10--10----8---8---



E|-------------------------------------------
B|-------------3--3--------------------3--3--
G|-------------4--4--------------------4--4--
D|--9--9--9----4--4----9--9--9h10p9----4--4--
A|-------------------------------------------
E|--8--8--8----3--3----8--8--8---------3--3--



E|-----------------------------------------------------------------------------------
B|-----------------------------------------------------------------------------------
G|-----------------------------------------------------------------------------------
D|--------------------------9-----------------------------------------------------7--
A|--------------------------------------------9-----------------------7--------------
E|--8--8--8--8--8--8--8--8-----8--8--8--8--8-----8--8--8--8--8--8--8-----8--8--8-----
http://www.guitartabcreator.com
Guitar Tab Creator is intended to store guitar tab created through the tool. It currently does not support in-line text editing. Any text you place in here will be lost. If you need to comment on your tab, please use the "Tab Notes" section located below.