Bronto Gtr 2, Part 2

(/) Slide Up  (\) Slide Down  (h) Hammer On  (p) Pull Off  (b) Bend (r) Release (v) Vibrato

E|----------12------17p12------17p12------------14p12------------12p10------|--
B|--12--12------12---------12---------12----12---------12----10---------10--|--
G|--------------------------------------------------------------------------|--
D|--------------------------------------------------------------------------|--
A|--------------------------------------------------------------------------|--
E|--------------------------------------------------------------------------|--


variation last time through
E|----------12------17p12--------14p12----------------12p10-----7p5-----
B|--12--12------12---------12-----------12----10--10---------5-------5--
G|----------------------------------------------------------------------
D|----------------------------------------------------------------------
A|----------------------------------------------------------------------
E|----------------------------------------------------------------------



E|------------------------------------------|-----------
B|------------------------------------------|-----------
G|------------------------------------------|-----------
D|------------------------------------7--7--|-----------
A|--2--2--2----2--2--2----2--4--5--5--7--7--|--2--2--2--
E|--0--0--0----0--0--0----0--2--3--3--5--5--|--0--0--0--
^play this instead of A power chord every other time


E|----------|-------------------------------------------------------
B|-------7--|--7-----7----------------------------------------------
G|----------|-------------------------------------------------------
D|-------6--|--6-----6-------------9--8--9----11--9--11--11--13--8--
A|-------7--|--7-----7-------------7--7--7----7---7--7--------------
E|--0----0--|-----0-----0--0--0-------------------------------------
^fuck around with this http://www.guitartabcreator.com
Guitar Tab Creator is intended to store guitar tab created through the tool. It currently does not support in-line text editing. Any text you place in here will be lost. If you need to comment on your tab, please use the "Tab Notes" section located below.