Bronto Gtr 2

(/) Slide Up  (\) Slide Down  (h) Hammer On  (p) Pull Off  (b) Bend (r) Release (v) Vibrato


E|-----------------7---------------------------------------
B|-----------8h10-----10--10--10p8-----------8h10--10--10--
G|---------------------------------------------------------
D|---------------------------------------------------------
A|---------------------------------------------------------
E|--0--0--0-------------------------0--0--0----------------
fuck around with this freely


E|--------7--------------
B|--9h10-----10--10--10--
G|-----------------------
D|-----------------------
A|-----------------------
E|-----------------------
this is when the vocals come in

"chorus"
E|-----------------------
B|-----7-----7-----------
G|-----------------------
D|-----6-----6-----------
A|-----7-----7-----------
E|--0-----0-----0--0--0--


"breakdown section"
E|----------12------15p12------15--15----------14p12--------------12p10------
B|--12--12------12---------12----------12--12---------12--10--10---------10--
G|---------------------------------------------------------------------------
D|---------------------------------------------------------------------------
A|---------------------------------------------------------------------------
E|---------------------------------------------------------------------------
http://www.guitartabcreator.com
Guitar Tab Creator is intended to store guitar tab created through the tool. It currently does not support in-line text editing. Any text you place in here will be lost. If you need to comment on your tab, please use the "Tab Notes" section located below.