Bronto Gtr 1, Part 2

(/) Slide Up  (\) Slide Down  (h) Hammer On  (p) Pull Off  (b) Bend (r) Release (v) Vibrato

E|--------------------------------------------------------------------------
B|--3--------3--------3--------3--------2--------2--------5--------5--------
G|-----0--------0--------0--------0--------1--------1--------4--------4-----
D|--------------------------------------------------------------------------
A|--2-----2--------2--------2--------2--------1--------1--------4--------4--
E|--------------------------------------------------------------------------



E|-----------------|-----------------------
B|--7--------7-----|--7--------7-----------
G|-----0--------0--|-----0--------0--------
D|-----------------|-----------------------
A|--7-----7--------|--7-----7--------7-----
E|-----------------|-----------------------
^First two times only ^Repeat this figure only after that


E|------------------------------------------------|-------------------------
B|--10---------10-----------14---------14---------|--14-----12------10------
G|------0----------0------------0----------0------|------0------------------
D|------------------------------------------------|-------------------------
A|--10-----10---------10----12-----12---------12--|--12---------12------12--
E|------------------------------------------------|-------------------------
^This variation every other time


E|----------------------------------------------------------------
B|-----7-----7----------------------------------------------------
G|----------------------------------------------------------------
D|-----6-----6-------------------9--8--9----9--8--9---------------
A|-----7-----7-------------------7--7--7----7--7--7----11--13--8--
E|--0-----0-----0--0--0----0--0--0--0--0----0--0--0----0---0---0--
http://www.guitartabcreator.com
Guitar Tab Creator is intended to store guitar tab created through the tool. It currently does not support in-line text editing. Any text you place in here will be lost. If you need to comment on your tab, please use the "Tab Notes" section located below.