Bronto Bass

(/) Slide Up  (\) Slide Down  (h) Hammer On  (p) Pull Off  (b) Bend (r) Release (v) Vibrato

E|--------------------------------------------------------------
B|--------------------------------------------------------------
G|-------------------11-----------------------------------------
D|-----------------------9--------------5-----------------------
A|--------------------------10-------5-----7--5--7--5-----------
E|--3--0--0--3--0---------------0----------------------7--5--5--



E|---------
B|---------
G|---------
D|---------
A|--11--7--
E|---------



E|----------------------------------------------------------------------------------------------------
B|----------------------------------------------------------------------------------------------------
G|--------6--9----11--------------------------------------6--9--12--11--9---------11--14------18------
D|-----8--------------9--------------------------------8-----------------------9----------12------16--
A|--7--------------------10--4/7----7/2--2--2--2----7----------------------10-------------------------
E|----------------------------------------------------------------------------------------------------



E|--------------------------------------------------------------------
B|--------------------------------------------------------------------
G|------------------------------------------------14--14--12--12--11--
D|---------------------16--16-----------------------------------------
A|--7--7--7----10--10------------7--7--7--10--10----------------------
E|--------------------------------------------------------------------
http://www.guitartabcreator.com
Guitar Tab Creator is intended to store guitar tab created through the tool. It currently does not support in-line text editing. Any text you place in here will be lost. If you need to comment on your tab, please use the "Tab Notes" section located below.