Blackest Night Guitar 2

(/) Slide Up  (\) Slide Down  (h) Hammer On  (p) Pull Off  (b) Bend (r) Release (v) Vibrato

guitar run 1
E|---------------------------|--------------------
B|---------------------------|--------------------
G|---------------------------|--8--------8/11-----
D|---------------------------|--------6--------8--
A|--6--6--6----9--9----------|-----7--------------
E|--0--0--0----0--0----7--7--|--------------------


guitar run 2
E|--------------------------|--12--12p11------------9--------
B|--------------------------|-------------11--9h11-----11p9--
G|--------------------------|--------------------------------
D|--------------------------|--------------------------------
A|--7--7--7--9--9--7--6-----|--------------------------------
E|--0--0--0--0--0--0--0--7--|--------------------------------



E|-----------------------9--------------------------------4------------------
B|--12--11----\7h9/11-------11--9\4--4h5/7--5--4----4--5-----7--5--4--2h4p2--
G|---------------------------------------------------------------------------
D|---------------------------------------------------------------------------
A|---------------------------------------------------------------------------
E|---------------------------------------------------------------------------


chorus
E|------------------------------------------------------------------------
B|------------------------------------------------------------------------
G|------------------------------------------------------------------------
D|------------------------------------------------------------------------
A|------------------------------------------------------------------------
E|--6--6--6--6h7----6--6--6--6h7----9--9--9--9h11----11--11--11--11----9--


repeat this every first half 2nd half var 1 2nd half var 2 2nd half var 3
E|------------9------------|---------------------|-------------------------|----------------
B|--11-----9-----0--11--9--|-11--0--9--7--7h8p7--|--11--9--0--5--4---------|--8--7--5b4-----
G|------0------------------|---------------------|------------------4p3h4--|-------------4--
D|-------------------------|---------------------|-------------------------|----------------
A|-------------------------|---------------------|-------------------------|----------------
E|-------------------------|---------------------|-------------------------|----------------
http://www.guitartabcreator.com
Guitar Tab Creator is intended to store guitar tab created through the tool. It currently does not support in-line text editing. Any text you place in here will be lost. If you need to comment on your tab, please use the "Tab Notes" section located below.