Blackest Night Guitar 1

(/) Slide Up  (\) Slide Down  (h) Hammer On  (p) Pull Off  (b) Bend (r) Release (v) Vibrato

Verse
E|--------------------------------------------------------------------------------
B|----------------------------------------4---------------7-----------------------
G|-------------------------------3-----------3-----3---------8--------------------
D|-----------1-------------2--------2-----------2---------------------8-----------
A|-----2--------2-------4-----4--------4---------------------------6-----6-----6--
E|--4-----4--------4--------------------------------------------7-----------7-----



E|--------------------------|-----------------------------
B|--------------------------|--------------2h4---------4--
G|--------------3-----------|--------0----------3h4----3--
D|--------1--------1-----1--|-----1--------------------4--
A|-----2--------------2-----|--------------------------2--
E|--0--------0--------------|--0--------0-----------------
repeat this 2x on first cycle use this variation for every 2nd cycle

Section 2
E|-----------------------------
B|----------------------(4)-(4)
G|--8--8--8------6--6----3--3--
D|--6--6--6------6--6----4--4--
A|--7--7--7------7--7----2--2--
E|--0--0--0------0--0----------
rhythm varies


E|---------------------------------------
B|----------------2----------------------
G|--8------6------3------6------8--6-----
D|--6------6------1------6------6--6--6--
A|--7------7------2------6------7--7--7--
E|--0------0-------------4------0--0--0--

Chorus
E|--------------
B|--4--------4--
G|--3--------3--
D|--4--------2--
A|--2--------4--
E|-(0)-------0--
http://www.guitartabcreator.com
Guitar Tab Creator is intended to store guitar tab created through the tool. It currently does not support in-line text editing. Any text you place in here will be lost. If you need to comment on your tab, please use the "Tab Notes" section located below.