Blackest Night Bass

(/) Slide Up  (\) Slide Down  (h) Hammer On  (p) Pull Off  (b) Bend (r) Release (v) Vibrato

E|--------------------|-------------------------------------------------------------
B|--------------------|-------------------------------------------------------------
G|--------------------|----------------------------------------------8--8--6--------
D|--------------------|-----------11-------------------------9p8--------------8-----
A|-------4h6----------|--------4------13--11--9--11-------7-------7--------------7--
E|--0---------6h7--7--|--4--4--------------------------7----------------------------



E|-------------------------------------------------------------------------|--------------------------
B|-------------------------------------------------------------------------|--------------------------
G|-------------------------------------------------------------------------|--------------------------
D|--------------------------------------------------------------11--11-----|--------8-----------------
A|--7--7--7----9--9----------------------------7--7--7----9--9-------------|-----------7--6-----------
E|---------------------7--9--9----9--9--9-------------------------------7--|--6--7-----------6--9-----



E|---------------------------------------------------------------------------------------------
B|---------------------------------------------------------------------------------------------
G|---------------------------------------------------------------------------------------------
D|---------------------------------------------------------------------------------------------
A|--7--7/9--7--6----6--6--9--7--6-------------6------------------------------------------------
E|---------------------------------7----7--7-----7--6--7--6----2--0--2--4--2--0--2----0--0--0--



E|---------------------------------------------
B|---------------------------------------------
G|---------------------------------------------
D|---------------------------------------------
A|---------------------------------------9--7--
E|--0--0--0--0----9--9--9--9----9--9--9--------
http://www.guitartabcreator.com
Guitar Tab Creator is intended to store guitar tab created through the tool. It currently does not support in-line text editing. Any text you place in here will be lost. If you need to comment on your tab, please use the "Tab Notes" section located below.