something beatles

(/) Slide Up  (\) Slide Down  (h) Hammer On  (p) Pull Off  (b) Bend (r) Release (v) Vibrato

E|-----------------------------------------------8--8--10b8-----------8--8-------------
B|-------8----------8b8----------8h10p8--11--11--------------9--8\10-------------8--8--
G|--7/9-----9--7/9-------9--7/9---------------------------------------------7\9--------
D|-------------------------------------------------------------------------------------
A|-------------------------------------------------------------------------------------
E|-------------------------------------------------------------------------------------



E|--------------------------------9\8--6--12\11--10---------------------------------------
B|-------------7--7--10b10b10--8-------------------------------------------------------8--
G|----------7----------------------------------------7b7b7b7b5--7b7b7b7b5--7b7b5--7/9-----
D|--7--8b8--------------------------------------------------------------------------------
A|----------------------------------------------------------------------------------------
E|----------------------------------------------------------------------------------------



E|--10b10--8h10p8-------------------------
B|-----------------10--10--12b10--11--12--
G|----------------------------------------
D|----------------------------------------
A|----------------------------------------
E|----------------------------------------
http://www.guitartabcreator.com
Guitar Tab Creator is intended to store guitar tab created through the tool. It currently does not support in-line text editing. Any text you place in here will be lost. If you need to comment on your tab, please use the "Tab Notes" section located below.