Sparks Fly

(/) Slide Up  (\) Slide Down  (h) Hammer On  (p) Pull Off  (b) Bend (r) Release (v) Vibrato
E|-----------------------------------------------------------------
B|-----------------------------------------------------------------
G|--9--9------9--11--9--9------9--11--9--9-----9--11--8--9--11/13--
D|--------11---------------11---------------9----------------------
A|-----------------------------------------------------------------
E|-----------------------------------------------------------------



E|------------------------------------------------------------------------------
B|------------------------------------------------------------------------------
G|--9--9------9--11--9--9------9--11--9--9-----9--11--8--9--11--13--11--9-------
D|--------11---------------11---------------9------------------------------11v--
A|------------------------------------------------------------------------------
E|------------------------------------------------------------------------------




E|---------------------------------------------------------
B|-----4-----6-----6h8--6/8------8------8--9v--------------
G|---------------------------------------------------------
D|--6-----8-----8------------10-----10----------------14v--
A|---------------------------------------------------------
E|---------------------------------------------13/15-------



E|----------------------------------------------------------------------
B|----------------------------------------------------------------------
G|--7--3--2--5-------------------------------------------------------5--
D|--7--3--3--5-------------------------------------------------------5--
A|--5-----3--3--5--7--8----------------------------------------------3--
E|-----------------------5--6--8--10--8--13--13--13--13--13--13--13-----


E|----------------------------------------------------------------------
B|----------------------------------------------------------------------
G|--7--3--2--5-------------------------------------------------------5--
D|--7--3--3--5-------------------------------------------------------5--
A|--5-----3--3--5--7--8----------------------------------------------3--
E|-----------------------5--6--8--10--8--13--13--13--13--13--13--13-----


E|------------------------------------------------------------------------------
B|------------------------------------------------------------------------------
G|--9--9------9--11--9--9------9--11--9--9-----9--11--8--9--11--13--11--9-------
D|--------11---------------11---------------9------------------------------11v--
A|------------------------------------------------------------------------------
E|------------------------------------------------------------------------------



E|-----------------------------------
B|--------5-----------5----------13--
G|-----5-----5-----5-----10--10------
D|--5-----------5--------------------
A|-----------------------------------
E|-----------------------------------



E|--------0--------0--------0--------0--------5--------3--------0--------0--------0--------0--------0--------0--
B|--3--------3--------5--------5--------6--------5--------3--------3--------3--------3--------5--------5--------
G|-----5--------5--------5--------5--------5--------5--------2--------2--------5--------5--------5--------5-----
D|--------------------------------------------------------------------------------------------------------------
A|--------------------------------------------------------------------------------------------------------------
E|--------------------------------------------------------------------------------------------------------------


E|----------------------------------------------------------------------
B|----------------------------------------------------------------------
G|--7--3--2--5-------------------------------------------------------5--
D|--7--3--3--5-------------------------------------------------------5--
A|--5-----3--3--5--7--8----------------------------------------------3--
E|-----------------------5--6--8--10--8--13--13--13--13--13--13--13-----



E|----------------------------------------------------------------------
B|----------------------------------------------------------------------
G|--7--3--2--5-------------------------------------------------------5--
D|--7--3--3--5-------------------------------------------------------5--
A|--5-----3--3--5--7--8----------------------------------------------3--
E|-----------------------5--6--8--10--8--13--13--13--13--13--13--13-----



E|-------------------------------------------------------
B|----------------------------------------------10-------
G|------------------------------------------10------12v--
D|--------------------------------------10---------------
A|--------------3-----------------3----------------------
E|--0--3--0--3-----5--0--3--0--3-----5-------------------



E|--------------
B|--------------
G|--7--3--2--5--
D|--7--3--3--5--
A|--5-----3--3--
E|--------------



E|--------------
B|--------------
G|--7--3--2--5--
D|--7--3--3--5--
A|--5-----3--3--
E|--------------




E|--------------
B|--------------
G|--7--3--2--5--
D|--7--3--3--5--
A|--5-----3--3--
E|--------------




E|--------------
B|--------------
G|--7--3--2--5--
D|--7--3--3--5--
A|--5-----3--3--
E|--------------



E|------------------------------
B|------------------------------
G|-----------10h12--10----------
D|--10/12---------------12--10--
A|------------------------------
E|------------------------------



E|----------------------------------------------------------------------
B|----------------------------------------------------------------------
G|---------------------------------------------------------5------------
D|---------------------------------------------------------5------------
A|---5--7--8-----------------------------------------------3------------
E|------------5--6--8--10--8--13--13--13--13--13--13--13----------------




E|----------------------------------------------------------------------
B|----------------------------------------------------------------------
G|--7--3--2--5-------------------------------------------------------5--
D|--7--3--3--5-------------------------------------------------------5--
A|--5-----3--3--5--7--8----------------------------------------------3--
E|-----------------------5--6--8--10--8--13--13--13--13--13--13--13-----



E|-----------------------------------------------------------------
B|-----------------------------------------------------------------
G|--9--9------9--11--9--9------9--11--9--9-----9--11--8--9--11/13--
D|--------11---------------11---------------9----------------------
A|-----------------------------------------------------------------
E|-----------------------------------------------------------------



E|------------------------------------------------------------------------------
B|------------------------------------------------------------------------------
G|--9--9------9--11--9--9------9--11--9--9-----9--11--8--9--11--13--11--9-------
D|--------11---------------11---------------9------------------------------11v--
A|------------------------------------------------------------------------------
E|------------------------------------------------------------------------------

http://www.guitartabcreator.com
Guitar Tab Creator is intended to store guitar tab created through the tool. It currently does not support in-line text editing. Any text you place in here will be lost. If you need to comment on your tab, please use the "Tab Notes" section located below.