Long Live - Taylor Swfit

(/) Slide Up  (\) Slide Down  (h) Hammer On  (p) Pull Off  (b) Bend (r) Release (v) Vibrato


E|---------------------8--7---------------------------8--7---------------------------------
B|-----------10--8-----------8-------------10--8------------8-------------10--8--7---------
G|--------7-----------------------------7------------------------------7--------------7/9--
D|--9/10------------9-------------9/10------------10-------------9/10----------------------
A|-----------------------------------------------------------------------------------------
E|-----------------------------------------------------------------------------------------



E|-----------------------------------------------------------------------------------
B|-----------------------------------------------------------------------------------
G|-----------------------------------------------------------------------------------
D|-----------------------------------------------------------------------------------
A|-----------------3--3--3--3--3--3--2--2--2--2--2--2--0--0--0--0--0--3--3--3--3--3--
E|--3--3--3--3--3--------------------------------------------------------------------



E|----------------10--7---------
B|--8----8---------------10--8--
G|----------7v------------------
D|------------------------------
A|------------------------------
E|------------------------------



E|----------------------------------------------------------------------------------------------
B|-----------10--8----------------10--8-----------------10--10-----10-----10--8------8------8---
G|--------7--------------------7---------------------7----------7------7--------------------7---
D|--9/10------------9----9/10------------10----9/10------------------------------10-----10--10--
A|------------------------------------------------------------------------------------------9---
E|----------------------------------------------------------------------------------------------



E|--3--3-----2--3--3-----3--------------------------
B|--3--3-----3--3--3-----3-------------10--8--------
G|-----------2----------------------7---------------
D|-----2--2--------2--2--2----9/10------------------
A|--2--3--2-----2--3--2--3--------------------------
E|--3-----------3-----------------------------14/2--



E|--------2-----3-----2-------------2-----5-----3-----
B|-----3-----3-----3-----3-------3-----3-----3-----3--
G|--0-------------------------0-----------------------
D|----------------------------------------------------
A|----------------------------------------------------
E|----------------------------------------------------



E|------------------7----------------------------7----------------------------7---------------------
B|-----------10--8----------8-------------10--8----------8-------------10-------------7--8--8-------
G|--------7--------------7-------------7--------------7-------------7------7-----7----------9--9/2--
D|--9/10-------------------------9/10-------------------------9/10----------------------------------
A|--------------------------------------------------------------------------------------------------
E|--------------------------------------------------------------------------------------------------



E|--3--3-----3----3--3-----3----3--3-----3----3--3--------
B|--3--3-----2----3--3-----2----3--3-----2----3--3-----1--
G|-----------3-------------3-------------3----------------
D|-----2--2----------2--2----------2--2----------2--2--2--
A|--2--3--2-------2--3--2-------2--3--2-------2--3--2--3--
E|--3-------------3-------------3-------------3-----------



E|--------------------------------------------------------------
B|--12--12--12--12--13--13--13--13--15--15--15--15--15----15/2--
G|--------------------------------------------------------------
D|--------------------------------------------------------------
A|--------------------------------------------------------------
E|--------------------------------------------------------------



E|-----------------------------------------------0--0--0--0--0--
B|--3-----------------3--------------------------0--0--0--0--0--
G|-----------------------0-----------------------0--0--0--0--0--
D|--------------------------0--------------------2--0--2--0--2--
A|--3--2--2--2--2--2-----------2--2--2--2--2--2--3--3--3--3--3--
E|--------------------------------------------------------------



E|--12--12--12--12-------
B|--12--12--12--12--12v--
G|--12--12--12--12-------
D|-----------------------
A|-----------------------
E|-----------------------



E|---------------------------------------7-------------------------------------
B|-----------10--8----------------10--8----------------10--8--7-------------3--
G|--------7--------------------7--------------------7------------7-------0-----
D|--9/10------------9----9/10-----------------9/10-----------------------------
A|--------------------------------------------------------------------3--------
E|-----------------------------------------------------------------------------



E|--3--3--15v--3--3--
B|--3--2-------3--3--
G|-----3-------------
D|--2-------------2--
A|--3----------2--3--
E|-------------3-----



E|--3--3-----3-----------------------
B|--3--3-----2-----------------------
G|-----------3------5--7--9--11--12--
D|-----2--2--------------------------
A|--2--3--2---------3--5--7--9---10--
E|--3--------------------------------
http://www.guitartabcreator.com
Guitar Tab Creator is intended to store guitar tab created through the tool. It currently does not support in-line text editing. Any text you place in here will be lost. If you need to comment on your tab, please use the "Tab Notes" section located below.