A Minor Blues Turnarounds ( Heads)

(/) Slide Up  (\) Slide Down  (h) Hammer On  (p) Pull Off  (b) Bend (r) Release (v) Vibrato


E|---------------------------------------------------0-----0-----0-----0--
B|------------------------------------------------------------------------
G|------------------------------------------------------------------------
D|-----7--------7--------7------------------------5-----4-----3-----2-----
A|--4-----4--5-----5--6-----6--7------------------------------------------
E|------------------------------------------------------------------------



E|-----5-----5-----5----------------------------------------------------------
B|--8-----7-----6-----5--------------------------2--3--4--5-------------------
G|----------------------------------------------------------------------------
D|-----------------------------------------------5--4--3--2-------------------
A|----------------------------------------------------------------------------
E|----------------------------------------------------------------------------
http://www.guitartabcreator.com
Guitar Tab Creator is intended to store guitar tab created through the tool. It currently does not support in-line text editing. Any text you place in here will be lost. If you need to comment on your tab, please use the "Tab Notes" section located below.