E Minor Blues Turnarounds (Heads)

(/) Slide Up  (\) Slide Down  (h) Hammer On  (p) Pull Off  (b) Bend (r) Release (v) Vibrato


E|-----4--------3--------2-----------------------------0--------0--------0-----0-----
B|-----------------------------------------------------------------------------------
G|--4-----4--3-----3--2-----2--1-----------------------------------------------------
D|-----------------------------------------------------------------------------------
A|--------------------------------------------------5-----5--4-----4--3-----3-----2--
E|-----------------------------------------------------------------------------------



E|------------------------------------------------------10p0-----9p0-----8p0-----7p
B|---------------------------------------------------------------------------------
G|-----9-----9-----9---------------------------------9--------9-------9-------9----
D|--6-----7-----8-----9------------------------------------------------------------
A|---------------------------------------------------------------------------------
E|---------------------------------------------------------------------------------
http://www.guitartabcreator.com
Guitar Tab Creator is intended to store guitar tab created through the tool. It currently does not support in-line text editing. Any text you place in here will be lost. If you need to comment on your tab, please use the "Tab Notes" section located below.