Blues Turnarounds (Endings)

(/) Slide Up  (\) Slide Down  (h) Hammer On  (p) Pull Off  (b) Bend (r) Release (v) Vibrato


E|---------------------------------------------
B|---------------------------------------5--5--
G|--8--7------------------------------5-----5--
D|--7--6--------------5--7---------6--------6--
A|--8--7--------5--7-----4------7-----------7--
E|---------------------------------------------



E|-----------------2-------------------------------------------
B|-----------------0------0--0---------------0--0--------------
G|--------------2---------3--2------------0-----0--------------
D|-----------1------------2--1---------1--------1--------8--7--
A|--0--1--2---------------3--2------2-----------2--------7--6--
E|-------------------------------------------------------8--7--
http://www.guitartabcreator.com
Guitar Tab Creator is intended to store guitar tab created through the tool. It currently does not support in-line text editing. Any text you place in here will be lost. If you need to comment on your tab, please use the "Tab Notes" section located below.