S2MP-sTORY

(/) Slide Up  (\) Slide Down  (h) Hammer On  (p) Pull Off  (b) Bend (r) Release (v) Vibrato


E|----------------------------------------------------------------------
B|----------------------------------------------------------------------
G|----------16----------16----------12----------11----------11----------
D|--14--14------14--14------12--14------14--14------14--14------14--14--
A|----------------------------------------------------------------------
D|----------------------------------------------------------------------



E|------------------------------------------------------------------------------
B|------------------------------------------------------------------------------
G|------------------------------------------------------------------------------
D|------12----------14----------11----------12----------12--------------12------
A|--10------10--10------10--10------10--10------10--10----------10--10------10--
D|----------------------------------------------------------10------------------



E|-----------------------------------------------------------
B|--------8--------8--------7--------------------------------
G|-----------------------------------7--------7--------7-----
D|-----------------------------------------------------------
A|--7--7-----7--7-----7--7-----7--7-----7--7-----7--7-----7--
D|-----------------------------------------------------------



E|------------------------------------------------------------------
B|------------------------------------------------------------------
G|------------------------------------------------------------------
D|----------12----------12----------11------------------------------
A|----------------------------------------------12----------12------
D|--10--10------10--10------10--10------10--10------10--10------10--



E|----------------------------------------------------
B|--------8--------8--------7--------10--------10-----
G|----------------------------------------------------
D|----------------------------------------------------
A|----------------------------------------------------
D|--7--7-----7--7-----7--7-----7--7------7--7------7--
Guitar Tab Creator is intended to store guitar tab created through the tool. It currently does not support in-line text editing. Any text you place in here will be lost. If you need to comment on your tab, please use the "Tab Notes" section located below.