Iron Pyrite by Lemaitre

(/) Slide Up  (\) Slide Down  (h) Hammer On  (p) Pull Off  (b) Bend (r) Release (v) Vibrato


E|----------------------------------------------------------------
B|--9--9------9------9--11b13--9--9------9------------------------
G|--------10-----10------------------10-----10--------------8-----
D|----------------------------------------------6--6--8/10--------
A|----------------------------------------------------------------
E|----------------------------------------------------------------



E|------------------------------------------------------------
B|--9--9------9------9--11b13--9--9------9--11--11/13--11--9--
G|--------10-----10------------------10-----------------------
D|------------------------------------------------------------
A|------------------------------------------------------------
E|------------------------------------------------------------
http://www.guitartabcreator.com
Guitar Tab Creator is intended to store guitar tab created through the tool. It currently does not support in-line text editing. Any text you place in here will be lost. If you need to comment on your tab, please use the "Tab Notes" section located below.