Let your heart lead the way Base RIF for Strings

(/) Slide Up  (\) Slide Down  (h) Hammer On  (p) Pull Off  (b) Bend (r) Release (v) Vibrato

(W|WW) Whole (H|HH) Half (Q|QQ) Quarter (E|EE) 8th (S|SS) 16th (T|TT) 32nd (X|XX) 64th

t: W W W W W W W W W W W W W W W W undefined
E|--------------------------------------------------|--
B|--------------------------------------------------|--
G|--------------------------------------------------|--
D|-----0-----0-----0-----2-----0-----0-----0-----2--|--
A|--0-----0-----2-----2-----0-----0-----2-----2-----|--
E|--------------------------------------------------|--


t: W W W W W W W W W W W W W W W W undefined
E|--------------------------------------------------|--
B|--------------------------------------------------|--
G|--------------------------------------------------|--
D|-----2-----2-----2-----2-----0-----0-----0-----0--|--
A|--2-----2-----0-----0-----0-----0-----0-----0-----|--
E|--------------------------------------------------|--


t: H H H H H H H H H H H H H H W W H H H H H H H H H
E|---------------------------------------------------------------------|--
B|---------------------------------------------------------------------|--
G|---------------------------------------------------------------------|--
D|---------------------------------------------------------------------|--
A|--5--2-----------5------5--2-----------5------5--2--5-----------5----|--
E|--------5--3--5---------------5--3--5------------------5--3--5-------|--


t: W W W W W W W W H
E|--------------------------|--
B|--------------------------|--
G|--------------------------|--
D|-----2-----2-----0-----0--|--
A|--3-----3-----0-----0-----|--
E|--------------------------|--
http://www.guitartabcreator.com
Guitar Tab Creator is intended to store guitar tab created through the tool. It currently does not support in-line text editing. Any text you place in here will be lost. If you need to comment on your tab, please use the "Tab Notes" section located below.