Base RIF for TMH2D on A

(/) Slide Up  (\) Slide Down  (h) Hammer On  (p) Pull Off  (b) Bend (r) Release (v) Vibrato

E|--------------------------------------------------------------------------------------------------
B|--------------------------------------------------------------------------------------------------
G|--------------------------------------------------------------------------------------------------
D|-----------------------------------4--------------------------------------------4-----------------
A|--------------------------3-----5-----5-----3--------6--------3--------2-----5-----5-----3--------
E|--5--5--5--5--5--5--5--5-----5-----------5-----5--7-----7--5-----5--3-----3-----------5-----5-----



E|-----------------------------------------
B|-----------------------------------------
G|-----------------------------------------
D|-----2-----------------------------------
A|--3-----3-----2--------3-----------------
E|-----------3-----3--5-----5--0--1--2--3--



E|-----------------------------------------------------------------------------------------------------------
B|-----------------------------------------------------------------------------------------------------------
G|-----------------------------------------------------------------------------------------------------------
D|-------------------------------------------------------2--3p5--------2--3--5-----4--5p7--------4--5--7-----
A|-----2--3p5--------2--3--5--------0--1--------0--1--3----------3--3-----------5----------5--5--------------
E|--3----------3--3-----------0--2--------0--2------------------------------------------------------------3--
http://www.guitartabcreator.com
Guitar Tab Creator is intended to store guitar tab created through the tool. It currently does not support in-line text editing. Any text you place in here will be lost. If you need to comment on your tab, please use the "Tab Notes" section located below.