Im Hanging Around ... Leyton Buzzards Tab--Dee Walters

(/) Slide Up  (\) Slide Down  (h) Hammer On  (p) Pull Off  (b) Bend (r) Release (v) Vibrato

E|--------------|--------------|--------------|--------------|--
B|--------------|--------------|--------------|--------------|--
G|--------------|--------------|--------------|--------------|--
D|--------------|--------------|--------------|--------------|--
A|--5--5--5--5--|--5--5--5--5--|--5--5--5--5--|--5--5--5--5--|--
E|--------------|--------------|--------------|--------------|--



E|--------------|--------------|--------------|--------------|--
B|--------------|--------------|--------------|--------------|--
G|--------------|--------------|--------------|--------------|--
D|--------------|--------------|--------------|--------------|--
A|--5--5--5--5--|--5--5--5--5--|--------------|--------------|--
E|--------------|--------------|--5--5--5--5--|--5--5--5--3--|--



E|--------------|--------------|--------------|--------------|-----
B|--------------|--------------|--------------|--------------|-----
G|--------------|--------------|--------------|--------------|-----
D|--------------|--------------|--------------|--------------|-----
A|--5--5--5--5--|--5--5--5--5--|--------------|--------------|-----
E|--------------|--------------|--5--5--5--5--|--5--5--5--3--|-----



E|--------------|--------------|--------------|--------------|-----
B|--------------|--------------|--------------|--------------|-----
G|--------------|--------------|--------------|--------------|-----
D|--------------|--------------|--------------|--------------|-----
A|--------------|--3--3--3--3--|--------------|--3--3--3--3--|-----
E|--1--1--1--1--|--------------|--1--1--1--1--|--------------|-----



E|--------------|--------------|--------------|--------------|--
B|--------------|--------------|--------------|--------------|--
G|--------------|--------------|--------------|--------------|--
D|--------------|--------------|--------------|--------------|--
A|--------------|--3--3--3--3--|--------------|--------------|--
E|--1--1--1--1--|--------------|--3--3--3--3--|--3--3--3--2--|--



E|--------------|--------------------------|--------------|--------------|--
B|--------------|--------------------------|--------------|--------------|--
G|--------------|--------------------------|--------------|--------------|--
D|--------------|--3--2--0-----3--2--0-----|--------------|--------------|--
A|--------------|-----------3-----------3--|--3--3--3--3--|--0--0--0--0--|--
E|--1--1--1--1--|--------------------------|--------------|--------------|--



E|--------------|--------------|--------------|--------------|--
B|--------------|--------------|--------------|--------------|--
G|--------------|--------------|--------------|--------------|--
D|--------------|--------------|--------------|--------------|--
A|--3--3--3--3--|--------------|--------------|--3--3--3--3--|--
E|--------------|--0--0--0--0--|--1--1--1--1--|--------------|--



E|--------------|--------------|--------------|--------------|--
B|--------------|--------------|--------------|--------------|--
G|--------------|--------------|--------------|--------------|--
D|--------------|--------------|--------------|--------------|--
A|--------------|--3--3--3--3--|--------------|--------------|--
E|--1--1--1--1--|--------------|--3--3--3--3--|--3--3--3--3--|--



E|--------------|--------------|--------------|--------------|--
B|--------------|--------------|--------------|--------------|--
G|--------------|--------------|--------------|--------------|--
D|--------------|--------------|--------------|--------------|--
A|--5--5--5--5--|--5--5--5--5--|--------------|--------------|--
E|--------------|--------------|--5--5--5--5--|--5--5--5--3--|--



E|--------------|--------------|--------------|--------------|--
B|--------------|--------------|--------------|--------------|--
G|--------------|--------------|--------------|--------------|--
D|--------------|--------------|--------------|--------------|--
A|--5--5--5--5--|--5--5--5--5--|--------------|--------------|--
E|--------------|--------------|--5--5--5--5--|--5--5--5--3--|--



E|--------------|--------------|--------------|--------------|--
B|--------------|--------------|--------------|--------------|--
G|--------------|--------------|--------------|--------------|--
D|--------------|--------------|--------------|--------------|--
A|--------------|--3--3--3--3--|--------------|--3--3--3--3--|--
E|--1--1--1--1--|--------------|--1--1--1--1--|--------------|--



E|--------------|--------------|--------------|--------------|--
B|--------------|--------------|--------------|--------------|--
G|--------------|--------------|--------------|--------------|--
D|--------------|--------------|--------------|--------------|--
A|--------------|--3--3--3--3--|--------------|--------------|--
E|--1--1--1--1--|--------------|--3--3--3--3--|--3--3--3--2--|--



E|--------------|--------------------------|--------------|-----------------
B|--------------|--------------------------|--------------|-----------------
G|--------------|--------------------------|--------------|-----------------
D|--------------|--3--2--0-----3--2--0-----|--------------|-----------------
A|--------------|-----------3-----------3--|--3--3--3--3--|--0--0--0--0-----
E|--1--1--1--1--|--------------------------|--------------|-----------------



E|--------------|--------------|--------------|--------------|--
B|--------------|--------------|--------------|--------------|--
G|--------------|--------------|--------------|--------------|--
D|--------------|--------------|--------------|--------------|--
A|--3--3--3--3--|--------------|--------------|--3--3--3--3--|--
E|--------------|--0--0--0--0--|--1--1--1--1--|--------------|--



E|--------------|--------------|--------------|-----------|--
B|--------------|--------------|--------------|-----------|--
G|--------------|--------------|--------------|-----------|--
D|--------------|--------------|--------------|-----------|--
A|--------------|--3--3--3--3--|--------------|-----------|--
E|--1--1--1--1--|--------------|--3--3--3--3--|--3--------|--



E|--------------|-----------|--0--------|--
B|--------------|-----------|--1--------|--
G|--------------|--5--------|--2--------|--
D|--------------|--5--------|--2--------|--
A|--3--3--3--3--|--2--------|--0--------|--
E|--------------|-----------|-----------|--



E|--3----|--0--------|--0--------|--0--------|--
B|--3----|--0--------|--1--------|--1--------|--
G|--5----|--1--------|--2--------|--2--------|--
D|--5----|--2--------|--2--------|--2--------|--
A|--3----|--2--------|--0--------|--0--------|--
E|-------|--0--------|-----------|-----------|--



E|-----------|--------------|--------------|--------------
B|-----------|--------------|--------------|--------------
G|-----------|--------------|--------------|--------------
D|-----------|--------------|--------------|--------------
A|-----------|--3--------3--|--------------|--3--3--3--3--
E|--1--------|-----0--1-----|--1--1--1--1--|--------------



E|--------------|--------------|--------------|--------------|--
B|--------------|--------------|--------------|--------------|--
G|--------------|--------------|--------------|--------------|--
D|--------------|--------------|--------------|--------------|--
A|--------------|--3--3--3--3--|--------------|--------------|--
E|--1--1--1--1--|--------------|--3--3--3--3--|--3--3--3--2--|--



E|--------------|--------------|--------------|--------------|--------------|--------------
B|--------------|--------------|--------------|--------------|--------------|--------------
G|--------------|--------------|--------------|--------------|--------------|--------------
D|--------------|--------------|--------------|--------------|--------------|--------------
A|--------------|--3--3--3--3--|--------------|--3--3--3--3--|--------------|--3--3--3--3--
E|--1--1--1--1--|--------------|--1--1--1--1--|--------------|--1--1--1--1--|--------------
http://www.guitartabcreator.com
Guitar Tab Creator is intended to store guitar tab created through the tool. It currently does not support in-line text editing. Any text you place in here will be lost. If you need to comment on your tab, please use the "Tab Notes" section located below.