The Chasm

(/) Slide Up  (\) Slide Down  (h) Hammer On  (p) Pull Off  (b) Bend (r) Release (v) Vibrato
E|-----------------------------------------------------
B|-----------------------------------------------------
G|--------0--------0--------0--------0-----------------
D|-----9--------9--------9--------9-----------5--7-----
A|--7--------7--------7--------7--------7--9-----------
E|-----------------------------------------------------



E|--------------------------------------------------
B|--------------------------------------------------
G|--------0--------0--------0--------0--------------
D|-----7--------7--------7--------7-----------5--7--
A|--5--------5--------5--------5--------5--7--------
E|--------------------------------------------------



E|-----------------------------------------------------------------------------------
B|-----------------------------------------------0--------------------0-----------0--
G|--------0--------0--------0--------0--------0-----------0--------0-----------0-----
D|-----0--------0--------0--------0--------0-----------0--------0-----------0--------
A|--3--------3--------3--------3--------3-----------2--------2-----------3-----------
E|-----------------------------------------------------------------------------------


http://www.guitartabcreator.com
Guitar Tab Creator is intended to store guitar tab created through the tool. It currently does not support in-line text editing. Any text you place in here will be lost. If you need to comment on your tab, please use the "Tab Notes" section located below.