In to the sky - Black Tide SOLO

(/) Slide Up  (\) Slide Down  (h) Hammer On  (p) Pull Off  (b) Bend (r) Release (v) Vibrato


E|----------------------------------------------------------------------------------------------
B|-------------------------------9--------------------------------------------------------------
G|-------6--6------6-----6h8/10---------8h10p8---------8--8h10--8--------6-----6--5b6-----------
D|--0/8---------------8-------------------------11--8-----------------------8----------6--------
A|----------------------------------------------------------------------------------------6\3v--
E|----------------------------------------------------------------------------------------------



E|-------------------------------------9/13--11--9--11--13--13h14p13p11------9--8h9p8\6v-----
B|-------------------------------9h11--------------------------------------------------------
G|-------6--6------6-----6h8/10--------------------------------------------------------------
D|--0/8---------------8----------------------------------------------------------------------
A|-------------------------------------------------------------------------------------------
E|-------------------------------------------------------------------------------------------
http://www.guitartabcreator.com
Guitar Tab Creator is intended to store guitar tab created through the tool. It currently does not support in-line text editing. Any text you place in here will be lost. If you need to comment on your tab, please use the "Tab Notes" section located below.