Tobys Random Riifs And Bullshit Part 5 c:

(/) Slide Up  (\) Slide Down  (h) Hammer On  (p) Pull Off  (b) Bend (r) Release (v) Vibrato


E|-----------------------------------------------------
B|-----------------------------------------------------
G|-----------------------------------------------------
D|-----------------------------------------------------
A|--------------------------5--5--5--5-----------------
E|--5--5--5--5--8--8--8--8--------------8--8--8--8-----



E|-----------------------------------------------------------------
B|-----------------------------------------------------------------
G|-----------------------------------------------------------------
D|-----------------------------------------------------------------
A|--8--8--8--8--8--8--8--8--6--6--6--6--5--5--5--5-----------------
E|--------------------------------------------------8--8--8--8-----



E|--------------------------
B|--------------------------
G|--------------------------
D|--------------------------
A|--5--5--8--8--5--5--8--5--
E|--5--5--8--8--------8--5--



E|------------------------------------------------------
B|------------------------------------------------------
G|------------------------------------------------------
D|--10--------------10--------------10--------------10--
A|--8---8--8--8--8--8---8--8--8--8--8---8--8--8--8--8---
E|------------------------------------------------------



E|--------------------------------------
B|--------------------------------------
G|--------------------------------------
D|--8--------------8--7--------------7--
A|--6--6--6--6--6--6--5--5--5--5--5--5--
E|--------------------------------------
http://www.guitartabcreator.com
Guitar Tab Creator is intended to store guitar tab created through the tool. It currently does not support in-line text editing. Any text you place in here will be lost. If you need to comment on your tab, please use the "Tab Notes" section located below.