Tobys Random Riifs And Bullshit Part 4 c:

(/) Slide Up  (\) Slide Down  (h) Hammer On  (p) Pull Off  (b) Bend (r) Release (v) Vibrato

E|-----------------------------------------------------------------------------
B|-----------------------------------------------------------------------------
G|-----------------------------------------------------------------------------
D|-----------------------------------------------------------------------------
A|-----------------------------------------------------------------------------
E|--0--0--0--0--0--0--5--0--0--0--8--0--0--0--0--0--0--3--0--0--0--3--0--0--0--



E|--------------------------------------------------
B|--------------------------------------------------
G|--------------------------------------------------
D|-----------------------------------------------3--
A|--------------------------------------------------
E|--0--0--0--0--0--0--5--0--0--0--8--0--0--0--0-----



E|-----------------------------------------------
B|-----------------------------------------------
G|-----------------------------------------------
D|-----------------------------------------------
A|-----------------------------------------------
E|--0--0--0--0--0--0--5--0--0--0--8--0--0--0--3--



E|--------------------------------------------------
B|--------------------------------------------------
G|--8--------7--------8--------7--------10p7--10p7--
D|-----0--0-----0--0-----0--0-----0--0--------------
A|--------------------------------------------------
E|--------------------------------------------------



E|--------------------10--8--7-------------------
B|------------------------------10--8--7---------
G|--8--------7----------------------------10--7--
D|-----0--0-----0--0-----------------------------
A|-----------------------------------------------
E|-----------------------------------------------
http://www.guitartabcreator.com
Guitar Tab Creator is intended to store guitar tab created through the tool. It currently does not support in-line text editing. Any text you place in here will be lost. If you need to comment on your tab, please use the "Tab Notes" section located below.