Tobys Random Riifs And Bullshit Part 3c:

(/) Slide Up  (\) Slide Down  (h) Hammer On  (p) Pull Off  (b) Bend (r) Release (v) Vibrato

E|-------------------------------------------------------------------------------------------------
B|-------------------------------------------------------------------------------------------------
G|--7--------7--------7--------7--------7-----7-----7----------------------------------------------
D|--x--------x--------x--------x--------x-----x-----x-----11--------11--------11-----10--------10--
A|--5--------5--------5--------5--------5-----5-----5-----x---------x---------x------x---------x---
E|-----0--0-----0--0-----0--0-----0--0-----0-----0-----0--8---8--8--8---8--8--8---8--7---7--7--7---



E|------------------
B|------------------
G|------------------
D|--------10--------
A|--------x---------
E|--7--7--7---7-----



E|--------------------------------------------------------
B|--------------------------------------------------------
G|--------------------------------------------------------
D|--10--------10--------10-----11--------11--------11-----
A|--x---------x---------x------x---------x---------x------
E|--8---8--8--8---8--8--8---8--7---7--7--7---7--7--7---7--
http://www.guitartabcreator.com
Guitar Tab Creator is intended to store guitar tab created through the tool. It currently does not support in-line text editing. Any text you place in here will be lost. If you need to comment on your tab, please use the "Tab Notes" section located below.