Stuck (prior editing)

(/) Slide Up  (\) Slide Down  (h) Hammer On  (p) Pull Off  (b) Bend (r) Release (v) Vibrato
E|----------------------------------------------
B|----------------------------------------------
G|----------------------------------------------
D|-------3--------3/5--------5-----10-----7h8p7-
A|----------------------------------------------
E|-0-0-0----0-0-0------3-3-3---8-8----5-5-------



E|------------------------------------------------------------
B|------------------------------------------------------------
G|------------------------------------------------------------
D|----3-2----5--3-2-0-3-2-0-----3-2----5--3p2p0-3p2p0-3p2p0-0-
A|--------3-------------------------3-------------------------
E|-0--------------------------0-------------------------------



E|--------------------------------------------------------------------------------------------------------------
B|--------------------------------------------------------------------------------------------------------------
G|--8--7-----10--8--7--8--7--8--7-----10--8--7--8--7--10--8------11--10--8--10--8--10--8------11--10--8--10--8--
D|--------8------------------------8-------------------------10---------------------------10--------------------
A|--------------------------------------------------------------------------------------------------------------
E|--------------------------------------------------------------------------------------------------------------
http://www.guitartabcreator.com
Guitar Tab Creator is intended to store guitar tab created through the tool. It currently does not support in-line text editing. Any text you place in here will be lost. If you need to comment on your tab, please use the "Tab Notes" section located below.