Random Riffs (Jaden)

(/) Slide Up  (\) Slide Down  (h) Hammer On  (p) Pull Off  (b) Bend (r) Release (v) Vibrato
E|-----------------------------------------
B|-----------------------------------------
G|---7-6---6-6-6h7p6-----7-6---6-6-6/9-9-9-
D|-5-----7-----------7-5-----7-------------
A|-5-------------------5-------------------
E|-5-------------------5-------------------



E|-----------------------------------------------------------------
B|-----------------------------------------------------------------
G|-----------------------------------------------------------------
D|---7-----7-----7---5-----5-----5---3-----3-----3---2-----2-----2-
A|-----5-----5---------5-----5---------0-----0---------0-----0-----
E|-0-----0-----0---0-----0-----0---0-----0-----0---0-----0-----0---



E|-------------------------------------------
B|-------------------------------------------
G|----------11-------11----------12-------12-
D|----12-------12----------12-------12-------
A|-10----10-------10----10----10-------10----
E|-------------------------------------------



E|--------------
B|--------------
G|--9--9--7--7--
D|--7--7--5--5--
A|--5--8--3-----
E|--------------



E|---------------------------------
B|---------------------------------
G|---------------------------------
D|-----3-----5-----6-----5-----6-6-
A|-----1-----3-----4-----3-----4-4-
E|-0-0---0-0---0-0---0-0---0-0-----



E|---------------------------------------------------
B|--------8--0--------7--0--------10--0--------8/10--
G|--0--0--------0--0--------0--0---------0--0--------
D|---------------------------------------------------
A|---------------------------------------------------
E|---------------------------------------------------



E|-------------------------------------------------------------
B|-------------------------------------------------------------
G|-------------------------------------------------------------
D|----------8--------8--------10----------8--------8--------7--
A|--0h8h10-----0--0-----0--0------0h8h10-----0--0-----0--0-----
E|-------------------------------------------------------------



E|-----------------------------------------------
B|-----------------------------------------------
G|-----------------------------------------------
D|--7--0--0--5--0--0--8--0--0--5--0--0--3--5--3--
A|-----------------------------------------------
E|-----------------------------------------------



E|-----
B|-----
G|-----
D|-----
A|-----
E|-----
http://www.guitartabcreator.com
Guitar Tab Creator is intended to store guitar tab created through the tool. It currently does not support in-line text editing. Any text you place in here will be lost. If you need to comment on your tab, please use the "Tab Notes" section located below.