Peace in pieces

(/) Slide Up  (\) Slide Down  (h) Hammer On  (p) Pull Off  (b) Bend (r) Release (v) Vibrato

E|--------------------------------------
B|--------------------------------------
G|--------------------------------------
D|----5-4h5p4----4----5-4h5p4-0-4-4h5-4-
A|------------5-------------------------
E|-2----------------2-------------------



E|-------------------------------------
B|-------------------------------------
G|-------------------------------------
D|-----5---4h5p4---------5---4h5p4-----
A|-----------------5-----------------2-
E|-2-2---2-------2---2-2---2-------2---



E|----------------------------------
B|----------------------------------
G|----------------------------------
D|-----10---9---7-------------------
A|------------------10---9----------
E|-7-7----7---7---7----7---7--10--9-



E|------------------------------------
B|------------------------------------
G|------------------------------------
D|---5-5p4p0-0-4----5-5p4p0-4-4/5-4---
A|------------------------------------
E|-2--------------2-------------------



E|-----------------------------------------------------------------------
B|-----------------------------------------------------------------------
G|-----------------------------------------------------------------------
D|-2-x-x-x-x-5-5-5-2-x-x-x-9-9-9-4-4-4-4-4-4-4-4-4-4-5-5-5-5-5-9-9-9-9-9-
A|-2-x-x-x-x-3-3-3-2-x-x-x-7-7-7-2-2-2-2-2-2-2-2-2-2-3-3-3-3-3-7-7-7-7-7-
E|-2-x-x-x-x-------2-x-x-x-----------------------------------------------



E|-------------------------------------------------------------------------------
B|-------------------------------------------------------------------------------
G|-------------------------------------------------------------------------------
D|-5-5-5-5-5-5-5-5-5-7-7-7-7-7-7-7-7-7-7-9-9-9-9-9-9-9-9-9-9-4-4-4-4-4-4-4-4-4-4-
A|-3-3-3-3-3-3-3-3-3-5-5-5-5-5-5-5-5-5-5-7-7-7-7-7-7-7-7-7-7-2-2-2-2-2-2-2-2-2-2-
E|-------------------------------------------------------------------------------



E|--------------------------------------------------------------------------
B|--------------------------------------------------------------------------
G|--------------------------------------------------------------------------
D|--2--2--5--5--5--5--5--5--5--5--4--4--2--2--5--5--5--5--5--5--5--5--7--7--
A|--2--2--------------------------------2--2--------------------------------
E|--2--2--------------------------------2--2--------------------------------
http://www.guitartabcreator.com
Guitar Tab Creator is intended to store guitar tab created through the tool. It currently does not support in-line text editing. Any text you place in here will be lost. If you need to comment on your tab, please use the "Tab Notes" section located below.