NEVER-ENDING.

(/) Slide Up  (\) Slide Down  (h) Hammer On  (p) Pull Off  (b) Bend (r) Release (v) Vibrato
E|------------------------------------------
B|------------------------------------------
G|-----9---------9---------9---------9------
D|--8-----10--8-----10--0-----10--0-----10--
A|--8---------8---------0---------0---------
E|--8---------8---------0---------0---------



E|-------------------------------------
B|-------------------------------------
G|--9---12--10--9---9---12--10--9------
D|--10--10--10--10--10--10--10--10-----
A|--8---8---8---8---0---0---0---0------
E|--8---8---8---8---0---0---0---0------



E|-------------------------------------------------------------
B|-------------------------------------------------------------
G|---------9-9-9-9-9-9-9-9---------------9-9-9-9-9-9-9-9-------
D|-------------------------10-10-------------------------10-10-
A|-------------------------------------------------------------
E|-8-8-8-8-----------------------0-0-0-0-----------------------



E|-------------------------------------------------------------------------------------
B|-------------------------------------------------------------------------------------
G|-----9--------12---9---9----9----------------9--------12---9---9------9--------------
D|---------10--------------10---10-----------------10--------------10-----10-----------
A|-------------------------------------------------------------------------------------
E|-8-8---8----8----8---8-----------8-8-8-8-0-0---0----0----0---0------0------0-0-0-0-0-



E|----------------------------------------------------------------------------------------------------------------------------------------------
B|----------------------------------------------------------------------------------------------------------------------------------------------
G|-----10--9------12--10--9--10--9--9-----10--9------12--10--9--10--9--9-----10--9------12--10--9--10--9--9-----10--9------12--10--9--10--9--9--
D|------------10---------------------------------10---------------------------------10---------------------------------10-----------------------
A|----------------------------------------------------------------------------------------------------------------------------------------------
E|--8----------------------------------8----------------------------------0----------------------------------0----------------------------------
http://www.guitartabcreator.com
Guitar Tab Creator is intended to store guitar tab created through the tool. It currently does not support in-line text editing. Any text you place in here will be lost. If you need to comment on your tab, please use the "Tab Notes" section located below.