More Riffs (Jaden)

(/) Slide Up  (\) Slide Down  (h) Hammer On  (p) Pull Off  (b) Bend (r) Release (v) Vibrato
E|------------------------------------------------------------------------------------------------------------
B|------------------------------------------------------------------------------------------------------------
G|-------9-------------9-------------9-------------9-------------9-------------9--------------12--------------
D|---7-----7---7---7-----7---7---7-----7---7---7-----7---7---7-----7---7---7-----7---7---10------10---10---10-
A|-5---5-----5---5---5-----5---8---8-----8---8---8-----8---0---0-----0---0---0-----0---8----8-------8----8----
E|------------------------------------------------------------------------------------------------------------



E|----------------------------------------------------
B|----------------------------------------------------
G|----------------------------------------------------
D|-------8-7-0--------------------------8-7-0---------
A|-------------------8-7-0-------10-8-7-------8-7-0-7-
E|-0-0-0-------0-0-0-------0-0-0----------------------



E|---------------------------------------
B|---------------------------------------
G|---------------------------------------
D|-10-12-8-10-12-10-12-8-5-7-5-0-5-7-5-0-
A|-10-12-8-8--10-10-12-8-5-7-5-0-5-7-5-0-
E|-10-12-8-------10-12-8-5-7-5-0-5-7-5-0-



E|---------------------
B|---------------------
G|-0-0-10-0-12-0-10-12-
D|---------------------
A|---------------------
E|---------------------



E|---------------------------
B|---------------------------
G|--12--10--------12--10--7--
D|----------10---------------
A|---------------------------
E|---------------------------



E|-----------------------------------------------------------------------------------------
B|-----------------------------------------------------------------------------------------
G|-----------------------------------------------------------------------------------------
D|-----10---10-10---10-----10---10-10---10-------12----12-12----12-------12----12-12----12-
A|-8-8----8-------8----8-8----8-------8----10-10----10-------10----10-10----10-------10----
E|-----------------------------------------------------------------------------------------
http://www.guitartabcreator.com
Guitar Tab Creator is intended to store guitar tab created through the tool. It currently does not support in-line text editing. Any text you place in here will be lost. If you need to comment on your tab, please use the "Tab Notes" section located below.