Intro MORE SHIT FROM ADAM

(/) Slide Up  (\) Slide Down  (h) Hammer On  (p) Pull Off  (b) Bend (r) Release (v) Vibrato

E|--------------------------------------------------------------------------------------------------
B|--------------------------------------------------------------------------------------10--11--13--
G|--12--10------12--10------12--10------------------12--10------12--10------12--10------------------
D|----------10----------12----------------------------------10----------11----------12--------------
A|----------------------------------13--12--13--15--------------------------------------------------
E|--------------------------------------------------------------------------------------------------



E|-----------------------------------------------------------------
B|-----1-----------------------1-----3-----4-----3-----1-----------
G|-----------3-----2-----3-----------------------------------3-----
D|--3-----3-----3-----3-----3-----3-----3-----3-----3-----3-----3--
A|-----------------------------------------------------------------
E|-----------------------------------------------------------------
http://www.guitartabcreator.com
Guitar Tab Creator is intended to store guitar tab created through the tool. It currently does not support in-line text editing. Any text you place in here will be lost. If you need to comment on your tab, please use the "Tab Notes" section located below.