Intro (Looping Symphony in B minor)

(/) Slide Up  (\) Slide Down  (h) Hammer On  (p) Pull Off  (b) Bend (r) Release (v) Vibrato


E|-----
B|-----
G|-----
D|-----
A|--2--
E|-----



E|-----------------------------------------------------------------------------
B|-----------------------------2-----------------------------------------------
G|-----------4--------2-----------4--2--4-----------4--------------------------
D|--------4--------4--------4--------------------4--------4--5-----------------
A|--2--2--------2--------2-----------------2--2--------2-----------------------
E|--------------------------------------------------------------3--2--0--0--2--



E|-----------9--7--11--12--14--------------
B|--4--5--7--------------------1--0-----1--
G|-----------------------------------2-----
D|-----------------------------------------
A|-----------------------------------------
E|-----------------------------------------



E|--------------------------0--------0-----0--------0-----0--
B|--4--5--7--8--7--4--0--1-----1--1-----0-----0--0-----0-----
G|-----------------------------------------------------------
D|-----------------------------------------------------------
A|-----------------------------------------------------------
E|-----------------------------------------------------------



E|--0--0--3--0--0--5--0--0--7--0--0--8--7--5--3--2--------2--------3--------5--------7--5--3--2-----------0--------2--------3--------2--------0-----------2--
B|--------------------------------------------------3--3-----3--3-----3--3-----3--3--------------3--1--1-----1--1-----1--1-----1--1-----1--1-----1--4--4-----
G|-----------------------------------------------------------------------------------------------------------------------------------------------------------
D|-----------------------------------------------------------------------------------------------------------------------------------------------------------
A|-----------------------------------------------------------------------------------------------------------------------------------------------------------
E|-----------------------------------------------------------------------------------------------------------------------------------------------------------



E|--0--0--0--0--0--0--0--0--0--0--0--0--0--0--0--0--2--2--2--2--2--2--2--2--3--3--3--3--3--3--3--3--
B|--0--0--0--0--0--0--0--0--4--4--4--4--4--4--4--4--0--0--0--0--0--0--0--0--1--1--1--1--1--1--1--1--
G|--------------------------------------------------------------------------------------------------
D|--------------------------------------------------------------------------------------------------
A|--------------------------------------------------------------------------------------------------
E|--------------------------------------------------------------------------------------------------



E|--------0--0--0--0--0--0--0--0--0-----------
B|-----0-----0--0--0--0--0--0--0--0-----------
G|--2--------0--2--2--0--0--0--0--2-----------
D|--------------3--1--2--0--2--2--2--5--4--1--
A|--------------------2--0--3--2--0--5--4-----
E|-----------------------0-----------3--2-----
http://www.guitartabcreator.com
Guitar Tab Creator is intended to store guitar tab created through the tool. It currently does not support in-line text editing. Any text you place in here will be lost. If you need to comment on your tab, please use the "Tab Notes" section located below.