Dawn of the Fallen (Toby Tab)

(/) Slide Up  (\) Slide Down  (h) Hammer On  (p) Pull Off  (b) Bend (r) Release (v) Vibrato

E|----------------------------------------------------------------------
B|----------------------------------------------------------------------
G|----------------------------------------------------------------------
D|----------------------------------------------------------------------
A|--0--0--0--5--------8--------7--------10--------8--------12--------7--
E|--0--0--0-----0--0-----0--0-----0--0------0--0-----0--0------0--0-----



E|----------------------------------------------------------------------------
B|----------------------------------------------------------------------------
G|----------------------------------------------------------------------------
D|--------------------------------------8--7--5-----------10--8--7------------
A|--0--0--0--5--------8--------7-----------------8--7--5------------10--8--7--
E|--0--0--0-----0--0-----0--0-----0--0----------------------------------------



E|---------------------------------------------------------------------
B|---------------------------------------------------------------------
G|-----------------------------------------------------------------13--
D|--------------------------------------8--7--5--8--7--5--8--7--5------
A|--0--0--0--5--------8--------7---------------------------------------
E|--0--0--0-----0--0-----0--0-----0--0---------------------------------



E|----------------------------------------------------------------
B|----------------------------------------------------------------
G|---------------------------12-10-12-13-12-9---------------------
D|----------------------------------------------------------------
A|----------------------------------------------------------------
E|-12--0--0-0-0-0---0-0-0-0-------------------12--0-0-0-12--0-0-0-
http://www.guitartabcreator.com
Guitar Tab Creator is intended to store guitar tab created through the tool. It currently does not support in-line text editing. Any text you place in here will be lost. If you need to comment on your tab, please use the "Tab Notes" section located below.