Adams Shit (No Chords)

(/) Slide Up  (\) Slide Down  (h) Hammer On  (p) Pull Off  (b) Bend (r) Release (v) Vibrato


E|-------------------------------------------------------------------------------------------------------
B|-------------------------------------------------------------------------------------------------------
G|-------------------------------------------------------------------------------------------------------
D|-----------------------------10--9--10--9--7-----------------------------------------------------------
A|--7--5--7/9--7--9--10--9--7-------------------10--9--------10--------10-----9--------9--------9--7--6--
E|-----------------------------------------------------8--8------8--8------8-----7--7-----7--7-----------



E|-------------------------------------------------------------------------------------------------------
B|-------------------------------------------------------------------------------------------------------
G|-------------------------------------------------------------------------------------------------------
D|-----------------------------10--9--10--9--7-----------------------------------------------------------
A|--7--5--7/9--7--9--10--9--7-------------------10--9--------10--------10-----9--------9--------9-----9--
E|-----------------------------------------------------8--8------8--8------8-----7--7-----7--7-----7-----



E|-------------------------------------------------------------------------------------------------------------------------
B|-------------------------------------------------------------------------------------------------------------------------
G|-------------------------------------------------------------------------------------------------------------------------
D|-------------------------------------------------------------------------------------------------------------------------
A|--------10--------10-----10----------12----------12------12--14--14--14--14--12--12--12b14--12--10----10--9b10--9--7--6--
E|--8--8------8--8------8------10--10------10--10------10------12--12--12--12--10--10--10---------8-----8---7--------------
http://www.guitartabcreator.com
Guitar Tab Creator is intended to store guitar tab created through the tool. It currently does not support in-line text editing. Any text you place in here will be lost. If you need to comment on your tab, please use the "Tab Notes" section located below.