Adams More guitar pro stuff

(/) Slide Up  (\) Slide Down  (h) Hammer On  (p) Pull Off  (b) Bend (r) Release (v) Vibrato


E|--15--15--15--15--15--11--11--11--11--11--13--13--13--13--13------------------
B|--------------------------------------------------------------11--11--11--13--
G|------------------------------------------------------------------------------
D|------------------------------------------------------------------------------
A|------------------------------------------------------------------------------
E|------------------------------------------------------------------------------



E|--------------------------------------------------------------------------------------------------
B|--------------------------------------------------------------------------------------------------
G|--------------------------------------------------------------------------------------------------
D|--------------------------------------------------------------------------------------------------
A|--------------------------3--3--3--3--------------------------------6--6--3--3--3--3--------------
E|--4--4--4--4--1--1--1--1--------------3--3--3--3--4--4--4--4--1--1--------------------3--3--3--3--



E|--------------------------------------------------------------------------------------------
B|--------------------------------------------------------------------------------------------
G|--------------------------------------------------------------------------------3-----------
D|-----------1-----------3-----------5--------------------1-----------3-----------------------
A|--3--1--3-----3--1--3-----3--1--3-----3--1--3--3--1--3-----3--1--3-----3--1--3-----3--1--3--
E|--------------------------------------------------------------------------------------------



E|-----------------------------------------------------------------------------------------------------
B|-----------------------------------------------------------------------------------------------------
G|-----------------------------------------------------------------------------------------------------
D|--5--5--5--5--5--5--5--5--5--5--6--6--6--6--3--3--3--3--5--5--5--5--5--5--5--5--5--5--6--5--3--1-----
A|--------------------------------------------------------------------------------------------------4--
E|-----------------------------------------------------------------------------------------------------



E|-----------------------------------------------------------------------------------------------------------
B|-----------------------------------------------------------------------------------------------------------
G|-----------------------------------------------------------------------------------------------------------
D|-----------------------------------------------------------------------------------------------------------
A|--3--3--3--3--3--3--3--3--3--3--3--3--3--3--3--3--3--3--3--3--3--3--3--3--3--3--3--3--3--3--3--3--3--3--3--
E|-----------------------------------------------------------------------------------------------------------



E|------------------------------------------------------------------
B|------------------------------------------------------------------
G|------------------------------------------------------------------
D|------------------------------------------------------------------
A|--3--3--3--3--3--3--3--3--3--4--3--4--7--4--3--4--3--4--10--5--4--
E|------------------------------------------------------------------



E|-----------------------------------------------------------------------------------------------3--
B|--1-----------1-----------4-----------1-----------1-----------1-----------------------------------
G|-----1--0--1-----1--0--1-----1--0--1-----1--0--1--------------------------4-----------------------
D|-----------------------------------------------------3--1--3-----3--1--3-----3--1--0--------------
A|--------------------------------------------------------------------------------------3--2--------
E|--------------------------------------------------------------------------------------------4--3--
http://www.guitartabcreator.com
Guitar Tab Creator is intended to store guitar tab created through the tool. It currently does not support in-line text editing. Any text you place in here will be lost. If you need to comment on your tab, please use the "Tab Notes" section located below.