Adams Looping Symphony

(/) Slide Up  (\) Slide Down  (h) Hammer On  (p) Pull Off  (b) Bend (r) Release (v) Vibrato

E|--0--0--0--0--0--
B|--0--0--0--0--0--
G|--1--2--4--2--1--
D|--2--2--4--2--2--
A|--2--0--2--0--2--
E|--0--0--0--0--0--



E|-------------11--12--11-------------
B|--9--10--12--------------12--10--9--
G|------------------------------------
D|------------------------------------
A|------------------------------------
E|------------------------------------



E|--2--4--2--0--2--0--------
B|--------------------2--0--
G|--------------------------
D|--------------------------
A|--------------------------
E|--------------------------



E|----------------
B|----------------
G|--9-------------
D|-----11--9--11--
A|----------------
E|----------------



E|-----------------------------------------------------------------------
B|--5--2-----2-----------------------------------------------------2--5--
G|--------4-----4--1--4--1-----1-----------------------------1--4--------
D|--------------------------4-----4--2--4--2-----------2--4--------------
A|--------------------------------------------4--2--4--------------------
E|-----------------------------------------------------------------------



E|----------12----------12------12--
B|--12--12------12--12------12------
G|----------------------------------
D|----------------------------------
A|----------------------------------
E|----------------------------------



E|--0--4--5--0--4--7--
B|--------------------
G|--------------------
D|--------------------
A|--------------------
E|--------------------
http://www.guitartabcreator.com
Guitar Tab Creator is intended to store guitar tab created through the tool. It currently does not support in-line text editing. Any text you place in here will be lost. If you need to comment on your tab, please use the "Tab Notes" section located below.