Pink Floyd - Pulse - Sorrow

(/) Slide Up  (\) Slide Down  (h) Hammer On  (p) Pull Off  (b) Bend (r) Release (v) Vibrato
E|-------------------------------|----------------------------------|---
B|-------------------------------|----------------------------------|---
G|-------------------------------|----------------------------------|---
D|-------------------------------|----------------------------------|---
A|-5h7--7-7--7h9p7-5----2/5-5----|-5h7--7-7--7h9p7-5----2/5-5--0----|---
E|--------------------3--------0-|--------------------3-----------0-|---



E|----------------------------------------------------------------|---
B|----------------------------------------------------------------|---
G|----------------------------------------------------------------|---
D|----------------------------------------------------------------|---
A|-5h7--7-7--7h9p7-5----2/5-5--2/5-5h7-7-7--7h9p7-5---2/5-5--0----|---
E|--------------------3-----------------------------3-----------0-|---



E|-10b12b10------------10b12-10-
B|------------------------------
G|------------------------------
D|------------------------------
A|----------------5-------------
E|------------5/7---0-----------



E|----------10b12-10-|----------
B|-------------------|----------
G|-------------------|----------
D|-------------------|----------
A|-----5-------------|----------
E|-5/7---0-----------|-12\7\3\0-



E|-------------------------------------------------------------12---------------------
B|-15b17--15-12---------------------------------------12-15b17----15b17--15-12-15-----
G|--------------14b15b14-12--14b16b14-12-14b16--14b16---------------------------------
D|------------------------------------------------------------------------------------
A|------------------------------------------------------------------------------------
E|------------------------------------------------------------------------------------



E|----------12-14-15-15b17--15b17-15-14-12-15--------------------12-----------
B|-15b17b15------------------------------------12-15b17-15-12-15--------------
G|------------------------------------------------------------------14b16-----
D|----------------------------------------------------------------------------
A|----------------------------------------------------------------------------
E|----------------------------------------------------------------------------



E|---------------------------------------
B|---------------------------------------
G|----14b16b14-14b16b14------------------
D|-14-------------------14---------14-12-
A|---------------------------------------
E|---------------------------12-12-------



E|------------------------------10b12-10---
B|-----------------------------------------
G|-----------------------------------------
D|-----------7b9-7-------------------------
A|-----5----------------5h7p5--------------
E|-5/7---0----------5h7-------0------------



E|---------------------------------------------------------------------------
B|---------------------------------------------------------------------------
G|---------------------------------------------------------------------------
D|-------5-4----------------5-4---------------5-4----------------5-4---------
A|-3/5-5------3/5-----3/5-5-----7p5h7---3/5-5------3/5-----3/5-5-----7p5h7---
E|----------------3------------------------------------3---------------------



E|-------------
B|-------------
G|-------------
D|-------------
A|-7-5---------
E|-----7-5-7/0-



E|--------------------------------------------------
B|--------------------------------------------------
G|--------------------------------------------------
D|--------------------------------------------------
A|-10v-v-v-v----------------------------------------
E|----------------10b12v-v-v------10b12v-v-v-v---b0-



E|---------------10b12-10-|-19-19-19-19-19-19-19b21-|---------
B|------------------------|-------------------------|---------
G|------------------------|-------------------------|-7b9b7-7-
D|------------------------|-------------------------|---------
A|-----5h7p5--------------|-------------------------|---------
E|-5h7-------0------------|-------------------------|---------



E|------------------------------14-14b15-14-12-14--12-14-15-15b17--15-14-12-15--12----12---------
B|----15b17--15-12-----------------------------------------------------------------15--------15--
G|-14--------------14b15b14-12------------------------------------------------------------14-----
D|-----------------------------------------------------------------------------------------------
A|-----------------------------------------------------------------------------------------------
E|-----------------------------------------------------------------------------------------------



E|-12----------------------------------------------------------------------------
B|----15b17b15-15/5--------------------------------------------------------------
G|------------------------------------7--------------------7---------------------
D|------------------5-7b8b7-5-7-7b9-----7b8b7-5-7------5h7---7--7-7-7-7b8b7-5-7--
A|------------------------------------------------7-7----------------------------
E|-------------------------------------------------------------------------------



E|--------------------------------------------------------------------
B|-----5-7b8--7-5-7--5---5--5h7p5----7-----7--------------------------
G|-4-7-----------------7----------7----7b9---7-4----------7-----------
D|-----------------------------------------------7b9--7b9---7b9b7-5---
A|--------------------------------------------------------------------
E|--------------------------------------------------------------------



E|-----------------------------------------------------------------------
B|-----------------------------------------------------------------------
G|-----------------------------------------------------------------------
D|-7-5-----5-------------------------------------------------------------
A|-----7-5---7-5---7-5--------------3-3-----3-3-5-5---3-3/5-5-7-7/10-10--
E|---------------7-----7-6-5--3-0---3-3-5---3-3/5-5---3-3-5-5/7-7-10-10--



E|-------12-----------------------15---------------------------------------------------------
B|-15b17----15-12-15-15b17--15b17----15b17--15-12-------15--------------------15-15----------
G|------------------------------------------------14b16----14b16b14-12--14b16-------14b16b14-
D|-------------------------------------------------------------------------------------------
A|-------------------------------------------------------------------------------------------
E|-------------------------------------------------------------------------------------------



E|------------------------------------------------------------------------------5----
B|---------------------------------------------------------------------5----8-8---8--
G|-12-14------------7----------------------------------------------7-7---7-----------
D|-------14-14--5h7---7--7-7-7-5-7b8b7-5-7----------------------5--------------------
A|-----------------------------------------5----------------5-7----------------------
E|-------------------------------------------5p3h5-3--3-3-7--------------------------



E|-6b5---5-7-10-5b6b5---5-7-10-10b12--15p14h15p14h15p14--17b19--17b19b17-15-17-17b19b17-
B|-----8--------------8-----------------------------------------------------------------
G|--------------------------------------------------------------------------------------
D|--------------------------------------------------------------------------------------
A|--------------------------------------------------------------------------------------
E|--------------------------------------------------------------------------------------



E|-14b15b14----------------------------------------------------------------------------
B|----------15-------------------------------------------------------------------------
G|-------------14-12-11-12-11---------------12--14b15b14-14----12-14-14b15b14-12-14-12-
D|----------------------------12------12-14-----------------14-------------------------
A|-------------------------------12----------------------------------------------------
E|-------------------------------------------------------------------------------------



E|-------------------------------------------------12-14-15-17b19--17b20b17--19b20b19-17-19-
B|-------12-15-12-12-15-12-12-15-12-12-15-12-12-15------------------------------------------
G|-14b16------------------------------------------------------------------------------------
D|------------------------------------------------------------------------------------------
A|------------------------------------------------------------------------------------------
E|------------------------------------------------------------------------------------------



E|-21-21-21-21-21-21-21--20-20-19--------12-----------------------------------------------------
B|---------------------------------15b17----15-12-15b17-----------------------------------------
G|-------------------------------------------------------14-12----------------------------------
D|-------------------------------------------------------------14-12-------------12-14----14-14-
A|-------------------------------------------------------------------------12-14-------12-------
E|-------------------------------------------------------------------12-14----------------------



E|-----------------------------
B|-----------------------------
G|----12-14b15b14-12-14--------
D|-14-------------------14-14--
A|-----------------------------
E|-----------------------------
http://www.guitartabcreator.com
Guitar Tab Creator is intended to store guitar tab created through the tool. It currently does not support in-line text editing. Any text you place in here will be lost. If you need to comment on your tab, please use the "Tab Notes" section located below.