Pink Floyd - Pulse - Sorrow

(/) Slide Up  (\) Slide Down  (h) Hammer On  (p) Pull Off  (b) Bend (r) Release (v) Vibrato
E|-------|-------|-|---------|---------|----------|-
B|-------|-------|-|---------|---------|----------|-
G|-------|-------|-|---------|---------|----------|-
D|-------|-------|-|---------|---------|----------|-
A|-5h7---|-7-7---|-|-7h9p7-5-|---2-5-5-|----------|-
E|-------|-------|-|---------|-3-------|-0v-v-v-v-|-



E|-------|-------|-|---------|---------|----------|-|----------|-
B|-------|-------|-|---------|---------|----------|-|----------|-
G|-------|-------|-|---------|---------|----------|-|----------|-
D|-------|-------|-|---------|---------|----------|-|----------|-
A|-5h7---|-7-7---|-|-7h9p7-5-|---2-5-5-|-0v-v-v-v-|-|----------|-
E|-------|-------|-|---------|-3-------|----------|-|-0v-v-v-v-|-



E|-------|-------|-|---------|---------|----------|-----|---------|---------|----|-----
B|-------|-------|-|---------|---------|----------|-----|---------|---------|----|-----
G|-------|-------|-|---------|---------|----------|-----|---------|---------|----|-----
D|-------|-------|-|---------|---------|----------|-----|---------|---------|----|-----
A|-5h7---|-7-7---|-|-7h9p7-5-|---2-5-5-|-2/5--5h7-|-7-7-|-7h9p7-5-|---2-5-5-|-0v-|-----
E|-------|-------|-|---------|-3-------|----------|-----|---------|-3-------|----|-0---



E|-10b12b10-|-
B|----------|-
G|----------|-
D|----------|-
A|----------|-
E|----------|-



E|---------|-
B|---------|-
G|---------|-
D|---------|-
A|-----5---|-
E|-5/7---0-|-



E|-----------------10v-|-
B|-x-x-x-x-x-x---------|-
G|-x-x-x-x-x-x-7b9-----|-
D|---------------------|-
A|---------------------|-
E|---------------------|-



E|---------|-10b12b10-
B|---------|----------
G|---------|----------
D|---------|----------
A|-----5---|----------
E|-5/7---0-|----------



E|-------------|-10b12-10v-
B|-------------|-----------
G|-------------|-----------
D|-------------|-----------
A|-----5h7p5---|-----------
E|-5/7-------0-|-----------



E|----------
B|----------
G|----------
D|----------
A|----------
E|-12\9\5\0-



E|---------|------------------------|-----------------------|--------------------12---------|-----
B|--15b17--|--15--12----------------|-----------------------|---------12--15b17------15b17--|-----
G|---------|----------14b16b14--12--|--14b16b14--12--14b16--|--14b16------------------------|-----
D|---------|------------------------|-----------------------|-------------------------------|-----
A|---------|------------------------|-----------------------|-------------------------------|-----
E|---------|------------------------|-----------------------|-------------------------------|-----



E|--------------|------------12--14--15--15b17--|--15b17--15--14--12--15------12--|-----
B|--15--12--15--|--15b17b15---------------------|-------------------------12------|-----
G|--------------|-------------------------------|---------------------------------|-----
D|--------------|-------------------------------|---------------------------------|-----
A|--------------|-------------------------------|---------------------------------|-----
E|--------------|-------------------------------|---------------------------------|-----



E|--------------12---------|-------------------------------|---------------|--
B|--15--12--15-------------|-------------------------------|---------------|--
G|------------------14b16--|--12--14b16--14--14b16b14------|---------------|--
D|-------------------------|---------------------------14--|------14--12v--|--
A|-------------------------|-------------------------------|---------------|--
E|-------------------------|-------------------------------|--12-----------|--



E|-------------|--
B|-------------|--
G|-------------|--
D|-------------|--
A|-------5-----|--
E|--5/7-----0--|--



E|----------|------------------10b12--10--|--
B|----------|-----------------------------|--
G|--7b9--7--|---------------9-------------|--
D|----------|-----------------------------|--
A|----------|-------5h7-------------------|--
E|----------|--5h7-------0----------------|--



E|----------------|----------|----------------|-----------|--|-------
B|----------------|----------|----------------|-----------|--|-------
G|----------------|----------|----------------|-----------|--|-------
D|----------5--4--|----------|----------5--4--|-----------|--|-------
A|--3/5--5--------|--3/5-----|--3/5--5--------|--7--5--7--|--|-------
E|----------------|-------3--|----------------|-----------|--|--8\0--



E|--------------------------|--|-------|--10b12--|--10b12v--|-----
B|--7--7--5--5-----5--------|--|--10v--|---------|----------|-----
G|--------------7-----4--4--|--|-------|---------|----------|-----
D|--------------------------|--|-------|---------|----------|-----
A|--------------------------|--|-------|---------|----------|-----
E|--------------------------|--|-------|---------|----------|--0--



E|--------------------|-----10b12b10--|--
B|--------------------|---------------|--
G|--------------------|--9------------|--
D|--------------------|---------------|--
A|-------5bh7p5-------|---------------|--
E|--5h7----------5p0--|---------------|--



E|--19--19--19--19--19--19--19--19--19b20--|--
B|-----------------------------------------|--
G|-----------------------------------------|--
D|-----------------------------------------|--
A|-----------------------------------------|--
E|-----------------------------------------|--



E|----------|-------------|------------------------|--14------14b15b14--12--14--|--12--14--15b17--
B|----------|------15b17--|--15--12----------------|----------------------------|-----------------
G|--9b11b9--|--14---------|----------14b16p14--12--|----------------------------|-----------------
D|----------|-------------|------------------------|----------------------------|-----------------
A|----------|-------------|------------------------|----------------------------|-----------------
E|----------|-------------|------------------------|----------------------------|-----------------



E|--15--14--12--15--|--12------12----------|--12----------------|---------------------
B|------------------|------15----------15--|------15b17b15--15--|---------------------
G|------------------|--------------14------|--------------------|---------------------
D|------------------|----------------------|--------------------|--5--7b8b7--5--7-----
A|------------------|----------------------|--------------------|---------------------
E|------------------|----------------------|--------------------|---------------------



E|-----------------------------|-------------------|------------------------|-----
B|-----------------------------|-------------------|------------------------|-----
G|-------7---------------------|----------5--7-----|------------------------|-----
D|--7b9-----7b8b7--5--7--------|--5/7--7--------7--|--7--7--7--7b8b7--5--7--|-----
A|-----------------------7--7--|-------------------|------------------------|-----
E|-----------------------------|-------------------|------------------------|-----



E|-------------------------|-----------------------
B|--------5--7b8--7--5--7--|--5-----5----5h7p5-----
G|--4--7-------------------|-----7--------------7--
D|-------------------------|-----------------------
A|-------------------------|-----------------------
E|-------------------------|-----------------------
http://www.guitartabcreator.com
Guitar Tab Creator is intended to store guitar tab created through the tool. It currently does not support in-line text editing. Any text you place in here will be lost. If you need to comment on your tab, please use the "Tab Notes" section located below.