Guitar Tutor

(/) Slide Up  (\) Slide Down  (h) Hammer On  (p) Pull Off  (b) Bend (r) Release (v) Vibrato


E|--3--1--0----|-------------|------------|-----
B|-------------|--3--1--0----|------------|-----
G|-------------|-------------|--2--0------|-----
D|-------------|-------------|------------|-----
A|-------------|-------------|------------|-----
E|-------------|-------------|------------|-----



E|------------|-------------|--0--1--3----|--
B|------------|--0--1--3----|-------------|--
G|--0--2------|-------------|-------------|--
D|------------|-------------|-------------|--
A|------------|-------------|-------------|--
E|------------|-------------|-------------|--
http://www.guitartabcreator.com
Guitar Tab Creator is intended to store guitar tab created through the tool. It currently does not support in-line text editing. Any text you place in here will be lost. If you need to comment on your tab, please use the "Tab Notes" section located below.