Voyager 1

(/) Slide Up  (\) Slide Down  (h) Hammer On  (p) Pull Off  (b) Bend (r) Release (v) Vibrato


E|--------------------------------------------
B|--------------------------------------------
G|--10--9--7------7----7--9--10--9------9--7--
D|------------10--------------------10--------
A|--------------------------------------------
E|--------------------------------------------



E|-----------------------------------------------
B|-----------------------------------------8-----
G|--10--9--7------7----7--9--10--9------9-----7--
D|------------10--------------------10-----------
A|-----------------------------------------------
E|-----------------------------------------------



E|----------------------------------------
B|----------------------------------------
G|-10-9-7------7---7--9--9b10------9--7---
D|---------10------------------10---------
A|----------------------------------------
E|----------------------------------------



E|-----------------------------------------
B|------------------------------------8----
G|-10-9-7------7---7--9--9b10------9-----7-
D|---------10------------------10----------
A|-----------------------------------------
E|-----------------------------------------



E|-----------------------------------------------
B|------------------------------------8-7---5----
G|-10-9-7------7---7--9--9b10------9-----------7-
D|---------10------------------10----------------
A|-----------------------------------------------
E|-----------------------------------------------
http://www.guitartabcreator.com
Guitar Tab Creator is intended to store guitar tab created through the tool. It currently does not support in-line text editing. Any text you place in here will be lost. If you need to comment on your tab, please use the "Tab Notes" section located below.