Pikkuveli - Noitalinna Huraa!

(/) Slide Up  (\) Slide Down  (h) Hammer On  (p) Pull Off  (b) Bend (r) Release (v) Vibrato


E|-------------------------------------------------------------------------------
B|-------------------------------------------------------------------------------
G|------------------------------------------------------------------------12--9--
D|-----------------------------------------------------------------10--7---------
A|-------------------3-------3----8--7--5-----5--------------7/10----------------
E|--8--7--5--3--3h5-----1------------------8-----5h7r5--3------------------------



E|----------------------------------------
B|---------------------------------8--10--
G|--5--5h7--5--5h7--7/9-------------------
D|-----------------------9------7---------
A|--------------------------10------------
E|----------------------------------------
http://www.guitartabcreator.com
Guitar Tab Creator is intended to store guitar tab created through the tool. It currently does not support in-line text editing. Any text you place in here will be lost. If you need to comment on your tab, please use the "Tab Notes" section located below.