Brandenburgilaiskonsertto 78/ Sami

(/) Slide Up  (\) Slide Down  (h) Hammer On  (p) Pull Off  (b) Bend (r) Release (v) Vibrato


E|-------------------------------------------------
B|------------------------8------------8-----------
G|-----------5---5-7-7/9----7v--5--7/9---7v---5----
D|-----5---7---7---------------------------------7-
A|-5-7---7-----------------------------------------
E|-------------------------------------------------



E|----------------------------------------------------------------------
B|----10----8-----10---8---------8--------8-----10----8-----10----8-----
G|-7------9----7-----9----7--7h9----7-7h9----7------9----7------9---7---
D|----------------------------------------------------------------------
A|----------------------------------------------------------------------
E|----------------------------------------------------------------------



E|--------------------------------------------------------
B|-------8------------8------------10---------------------
G|--7h9-------7--7h9-------7--7h9--------------7--7h9-----
D|-----------------------------------------------------7--
A|--------------------------------------------------------
E|--------------------------------------------------------
http://www.guitartabcreator.com
Guitar Tab Creator is intended to store guitar tab created through the tool. It currently does not support in-line text editing. Any text you place in here will be lost. If you need to comment on your tab, please use the "Tab Notes" section located below.