Kiss You - guitar tab - lead and rhythm

(/) Slide Up  (\) Slide Down  (h) Hammer On  (p) Pull Off  (b) Bend (r) Release (v) Vibrato


INTRO

E|---------------------------------------
B|---------------------------------------
G|--6--4-----------1-----1-----1--11--9--
D|--6--4--7--6--4--2--4--2--4--2--11--9--
A|--4--2--7--6--4--2--4--2--4--2--9---7--
E|--------5--4--2-----2-----2------------

ENDING PART OF INTRO

E|--12--11-- ----------
B|--12--12-- ----------
G|---------- OR --9----8--
D|---------- --9----9--
A|---------- --7----6--
E|---------- ----------
FOR LEAD FOR RHYTHM


E|--12----------9-------
B|--12--12--10--10--12--
G|------11--9-------9---
D|----------------------
A|----------------------
E|----------------------
LEAD RIFF


E|--------------------- ----------
B|--------------------- ----------
G|--9------------------ ----------
D|--9--9--7--7--11--9-- --7--7--7- <--- How to end the chorus
A|--7--9--7--7--11--9-- --7--7--7-
E|-----7--5--5--9---7-- --5--5--5-
CHORUS AND PRE-CHORUS
(just chords not the strum
pattern)


E|----- ----------------------------- -------
B|----- ----------------------------- -------
G|--9-- -1-------1------------------- -1-----
D|--9-- <-- this is a pick up -2--0/2--2------------------- <-- Repeat x3 -2--9-- <-- bridge end
A|--7-- -2-------2--4--2--0---------- -2--9--
E|----- ---------------------4--2--0- ----7--




http://www.guitartabcreator.com
Guitar Tab Creator is intended to store guitar tab created through the tool. It currently does not support in-line text editing. Any text you place in here will be lost. If you need to comment on your tab, please use the "Tab Notes" section located below.