Kiss You - bass guitar tab

(/) Slide Up  (\) Slide Down  (h) Hammer On  (p) Pull Off  (b) Bend (r) Release (v) Vibrato

INTRO
G|--------------------------------------------
D|--------------------------------------------
A|--4--2--------------------------9--7--7--6--
E|--------5--4--2--0--2--0--2--0--------------


VERSE/PRE-CHORUS/CHORUS
G|----------------------- -----------
D|----------------------- ----------- <== end of chorus
A|--7-------------------- -----------
E|-----7--5--5--9--7----- --5--5--5--


RIFF (only played after 1st chorus moving to 2nd verse)

G|------------------------
D|------------------------
A|--7--------6--7--11--9--
E|-----7--5---------------


BRIDGE/INSTRUMENTAL
G|---- ----------------------------- Repeat -------
D|---- pickup ----0/2---------------------- <== 3 times ------- <== end of bridge
A|--7- to bridge ------------4--2--0---------- -------
E|---- -0-------0-----------4--2--0- -0--7--


http://www.guitartabcreator.com
Guitar Tab Creator is intended to store guitar tab created through the tool. It currently does not support in-line text editing. Any text you place in here will be lost. If you need to comment on your tab, please use the "Tab Notes" section located below.