Jazz Jack Rabbit - Medieval Jam

(/) Slide Up  (\) Slide Down  (h) Hammer On  (p) Pull Off  (b) Bend (r) Release (v) Vibrato


E|-------------------------------------------------------------------------6--8--6-----
B|----------------------------------8--9--8-----8--9--8--9--8--9--6--8--9-----------6--
G|--8--10--8--10--8--10----------------------8-----------------------------------------
D|-----------------------8--10--11-----------------------------------------------------
A|-------------------------------------------------------------------------------------
E|-------------------------------------------------------------------------------------



E|-----------------------
B|-----9--8--6-----8-----
G|--6-----------6-----5--
D|-----------------------
A|-----------------------
E|-----------------------
http://www.guitartabcreator.com
Guitar Tab Creator is intended to store guitar tab created through the tool. It currently does not support in-line text editing. Any text you place in here will be lost. If you need to comment on your tab, please use the "Tab Notes" section located below.