Jazz Jack Rabbit 2 - Jazz Castle

(/) Slide Up  (\) Slide Down  (h) Hammer On  (p) Pull Off  (b) Bend (r) Release (v) Vibrato


E|---------------------------------------------------------------------------
B|-13-11-13-11-9-8-9---------------------------------------------------------
G|-------------------8-10-------------------------------------10-12-13-14----
D|------------------------------------------8------------8-10-------------10-
A|------------------------8-10-11-8-8-10-11---10-8-10-11---------------------
E|---------------------------------------------------------------------------



E|---------------------------------------------
B|------------------------10-11-13-------------
G|-8-10----------10-12-13-------------12-14-15h
D|------11-10----------------------13----------
A|------------10-------------------------------
E|---------------------------------------------
http://www.guitartabcreator.com
Guitar Tab Creator is intended to store guitar tab created through the tool. It currently does not support in-line text editing. Any text you place in here will be lost. If you need to comment on your tab, please use the "Tab Notes" section located below.